Atendimento Tel : 3734-1066 de Seg a Sex das 9h às 16h / Sáb das 9h às 13h

domingo, 4 de dezembro de 2011

Waldir Azevedo - Brasileirinho - Aula Guitarra - Galdinosaqua

Brasileirinho - Waldir Azevedo (aula de guitarra)

Tom: D
               
Primeira Parte:
 
(Parte 1)
D|-9-9-9-9-0-5-9-0-5-9-0-5-9-0-5-9-0-5---------------
B|---------------------------------------------------
G|---------------------------------------------------
D|---------------------------------------------------
A|---------------------------------------------------
E|---------------------------------------------------
 
 
D|-8---0-5-8-0-5-8-0-5-8-0-5-8-0-5-------------------
B|---------------------------------------------------
G|---------------------------------------------------
D|---------------------------------------------------
A|---------------------------------------------------
E|---------------------------------------------------
 
 
D|-9---0-5-9-0-5-9-0-0-9-9-9-9-8-7-6-5~--------------
B|---------------------------------------------------
G|---------------------------------------------------
D|---------------------------------------------------
A|---------------------------------------------------
E|---------------------------------------------------
 
 
(Parte 1 - Variação)
D|-9-9-9-9-0-4-5-0-8-9-0-4-5-0-8-9-0-----------------
B|---------------------------------------------------
G|---------------------------------------------------
D|---------------------------------------------------
A|---------------------------------------------------
E|---------------------------------------------------
 
 
D|-7-8-0-4-5-0-7-8-0-4-5-0-7-8-0---------------------
B|---------------------------------------------------
G|---------------------------------------------------
D|---------------------------------------------------
A|---------------------------------------------------
E|---------------------------------------------------
 
 
D|-8-9-0-4-5-0-8-9-0-4-5-0-9-9-9-9-8-7-6-5~----------
B|---------------------------------------------------
G|---------------------------------------------------
D|---------------------------------------------------
A|---------------------------------------------------
E|---------------------------------------------------
 
 
(Parte 2)
D|-0-2-3-4-3-2-0-2-3-4-3-2-0-2-3-4-3-2-0-------------
B|---------------------------------------------------
G|---------------------------------------------------
D|---------------------------------------------------
A|---------------------------------------------------
E|---------------------------------------------------
 
 
D|-5-4-2-0-5-4-2-0-5-4-2-0---------------------------
B|---------------------------------------------------
G|---------------------------------------------------
D|---------------------------------------------------
A|---------------------------------------------------
E|---------------------------------------------------
 
 
D|-------------------0-2-4-2-0---0-2-0---------------
B|-1-0-------------1-----------2-------2-------------
G|-----2-0-------2-----------------------5-4~--------
D|---------4-0-4-------------------------------------
A|---------------------------------------------------
E|---------------------------------------------------
 
 
(Parte 3)
D|-0-2-3-4---0-2-3-4---0-2-3-4-3-2-0-5---0-2-4-5-----
B|---------------------------------------------------
G|---------------------------------------------------
D|---------------------------------------------------
A|---------------------------------------------------
E|---------------------------------------------------
 
 
D|-0-2-4-5-4-2-0-4---0-2-3-4----2-4-2-0--------------
B|--------------------------------------1-0----------
G|------------------------------------------2-0------
D|---------------------------------------------------
A|---------------------------------------------------
E|---------------------------------------------------
 
 
Segunda Parte:
 
(Parte 1)
D|---------------------------------------------------
B|---------------------------------------------------
G|---0-2-3-2-0---0-2-3-2-0---0-2-3-0-----------------
D|-0-----------0-----------0-------------------------
A|---------------------------------------------------
E|---------------------------------------------------
 
 
D|-1--0---0-1-0---0-1-0------------------------------
B|------1-------1--------1--------------1------------
G|--------------------------2---------2--------------
D|-----------------------------4--0-4----------------
A|---------------------------------------------------
E|---------------------------------------------------
 
 
D|-0-1-0-1-0-1-0-1-0-3-2-1---0-----------------------
B|---------------------------------------------------
G|---------------------------------------------------
D|---------------------------------------------------
A|---------------------------------------------------
E|---------------------------------------------------
 
 
(Parte 2)
D|-5---4---3---2---1--0------------------------------
B|-----------------------2---------------------------
G|---------------------------------------------------
D|---------------------------------------------------
A|---------------------------------------------------
E|---------------------------------------------------
 
 
D|-1-1-1-1p0---------------0-1-0-1-0-3-2-1--0--------
B|-----------1-----------1---------------------------
G|-------------2-------2-----------------------------
D|---------------4-0-4-------------------------------
A|---------------------------------------------------
E|---------------------------------------------------
 
 
(Parte 3)
D|-5------5-----5-----5---0--------------------------
B|---------------------------------------------------
G|-----5-----5-----5---------------------------------
D|---------------------------------------------------
A|---------------------------------------------------
E|---------------------------------------------------
 
 
D|---------------------------------------------1-0---
B|---------------------------------------------------
G|---0-2-3-2-0---0-2-3-2-0------0-2-3-2-0----2-----0-
D|-0-----------0-----------3-2------------4----------
A|---------------------------------------------------
E|---------------------------------------------------
 
 
Final:
 
D|-------------------------------0-0---0---0-2-4-----
B|---------------0-0---0---0-1-2-----2---2-----------
G|-0---0---0-2-3-----3---3---------------------------
D|---4---4-------------------------------------------
A|---------------------------------------------------
E|---------------------------------------------------
 
 
D|-5-4-2-0-5-4-2-0----------------------------17--17-
B|---------------------------------8--12-8----15--15-
G|--------------------------------------------12--12-
D|-----------------5-4-2-0-5-4-2-0-5--7--5-----------
A|---------------------------------------------------
E|---------------------------------------------------
 
 
Sequência da música:
 
Primeira Parte:
 
(Parte 1)
(Parte 1 - variação)
(Parte 2)
(Parte 3)
 
(Parte 1)
(Parte 1 - variação)
(Parte 2)
(Parte 3)
 
Segunda Parte:
(Parte 1)
(Parte 2)
(Parte 1)
(Parte 3)
 
(Parte 1)
(Parte 2)
(Parte 1)
(Parte 3)
 
Primeira Parte - Final:
(Parte 1)
(Parte 1 variação)
(Parte 2)
(Parte 3)
(Final)

Nenhum comentário:

MAIS RECEITAS AQUI - CLICK FOTO - MAIS RECEITAS AQUI - CLICK FOTO - MAIS RECEITAS AQUI - CLICK

MAIS RECEITAS AQUI - CLICK FOTO - MAIS RECEITAS AQUI - CLICK FOTO - MAIS RECEITAS AQUI - CLICK
MAIS RECEITAS AQUI - CLICK FOTO - MAIS RECEITAS AQUI - CLICK FOTO