Atendimento Tel : 3734-1066 de Seg a Sex das 9h às 16h / Sáb das 9h às 13h

domingo, 4 de dezembro de 2011

Nirvana - All Apologies - Aula Violão - Galdinosaqua

All Apologies - Nirvana (aula de violão  

 

  
Tom: D
               
Afinação: D A D G B E
 
Intro: Riff
 
E|---------------------------------------------------
B|-----------------------------3-3-1-0---------------
G|-2-2-2-2-2-2-2-2-----2-2-2-2-2-2-2-2---------------
D|-0-0-0-0-0-0-0-0-----0-0-0-0-0-0-0-0---------------
A|-0-0-0-0-0-0-0-0-----0-0-0-0-0-0-0-0---------------
E|-0-0-0-0-0-0-0-0-----0-0-0-0-0-0-0-0---------------
 
 
E|-----------------------------2-2-0-----------------
B|-----------------------------3-3-3-3---------------
G|-2-2-2-2-2-2-2-2-----2-2-2-2-2-2-2-2---------------
D|-0-0-0-0-0-0-0-0-----0-0-0-0-0-0-0-0---------------
A|-0-0-0-0-0-0-0-0-----0-0-0-0-0-0-0-0---------------
E|-0-0-0-0-0-0-0-0-----0-0-0-0-0-0-0-0---------------
 
 
Verso 1:
(Riff)
What else should I be, all apologies
What else should I say, everyone is gay
What else could I write, I don't have the right
What else should I be, all apologies
 
Refrão:
G6
In my sun
In my sun I feel as one
In my sun
In my sun
 A5(9)
Married
buried
 
Verso 2:
(Riff)
I wish I was like you, easily amused
Find my nest of salt, everything is my fault
I'll take all the blame, aqua sea foam shame
Sunburn with freeze burn, choking on the ashes of her enemy
 
Refrão:
G6
 In my sun
 In my sun I feel as one
 In my sun
 In my sun
 A5(9)
Married
buried  (2x)
 
(Riff)
All alone is all we all are...


Nenhum comentário:

MAIS RECEITAS AQUI - CLICK FOTO - MAIS RECEITAS AQUI - CLICK FOTO - MAIS RECEITAS AQUI - CLICK

MAIS RECEITAS AQUI - CLICK FOTO - MAIS RECEITAS AQUI - CLICK FOTO - MAIS RECEITAS AQUI - CLICK
MAIS RECEITAS AQUI - CLICK FOTO - MAIS RECEITAS AQUI - CLICK FOTO